  0
SECTION
  2
HEADER
  9
$ACADVER
  1
AC1015
  9
$ACADMAINTVER
 70
     6
  9
$DWGCODEPAGE
  3
ANSI_1254
  9
$INSBASE
 10
0.0
 20
0.0
 30
0.0
  9
$EXTMIN
 10
0.0
 20
0.0
 30
0.0
  9
$EXTMAX
 10
279.4
 20
215.9
 30
0.0
  9
$LIMMIN
 10
0.0
 20
0.0
  9
$LIMMAX
 10
279.4
 20
215.9
  9
$ORTHOMODE
 70
     0
  9
$REGENMODE
 70
     1
  9
$FILLMODE
 70
     1
  9
$QTEXTMODE
 70
     0
  9
$MIRRTEXT
 70
     1
  9
$LTSCALE
 40
1.0
  9
$ATTMODE
 70
     1
  9
$TEXTSIZE
 40
3.5
  9
$TRACEWID
 40
1.0
  9
$TEXTSTYLE
  7
Standard
  9
$CLAYER
  8
0
  9
$CELTYPE
  6
ByLayer
  9
$CECOLOR
 62
   256
  9
$CELTSCALE
 40
1.0
  9
$DISPSILH
 70
     0
  9
$DIMSCALE
 40
1.0
  9
$DIMASZ
 40
3.5
  9
$DIMEXO
 40
1.0
  9
$DIMDLI
 40
3.75
  9
$DIMRND
 40
0.0
  9
$DIMDLE
 40
0.0
  9
$DIMEXE
 40
1.0
  9
$DIMTP
 40
0.0
  9
$DIMTM
 40
0.0
  9
$DIMTXT
 40
3.5
  9
$DIMCEN
 40
2.5
  9
$DIMTSZ
 40
0.0
  9
$DIMTOL
 70
     0
  9
$DIMLIM
 70
     0
  9
$DIMTIH
 70
     1
  9
$DIMTOH
 70
     1
  9
$DIMSE1
 70
     0
  9
$DIMSE2
 70
     0
  9
$DIMTAD
 70
     1
  9
$DIMZIN
 70
     0
  9
$DIMBLK
  1

  9
$DIMASO
 70
     1
  9
$DIMSHO
 70
     1
  9
$DIMPOST
  1

  9
$DIMAPOST
  1

  9
$DIMALT
 70
     0
  9
$DIMALTD
 70
     3
  9
$DIMALTF
 40
0.0393700787
  9
$DIMLFAC
 40
1.0
  9
$DIMTOFL
 70
     1
  9
$DIMTVP
 40
0.0
  9
$DIMTIX
 70
     0
  9
$DIMSOXD
 70
     0
  9
$DIMSAH
 70
     0
  9
$DIMBLK1
  1

  9
$DIMBLK2
  1

  9
$DIMSTYLE
  2
ISO-25
  9
$DIMCLRD
 70
     0
  9
$DIMCLRE
 70
     0
  9
$DIMCLRT
 70
     0
  9
$DIMTFAC
 40
1.0
  9
$DIMGAP
 40
1.524
  9
$DIMJUST
 70
     0
  9
$DIMSD1
 70
     0
  9
$DIMSD2
 70
     0
  9
$DIMTOLJ
 70
     0
  9
$DIMTZIN
 70
     0
  9
$DIMALTZ
 70
     0
  9
$DIMALTTZ
 70
     0
  9
$DIMUPT
 70
     0
  9
$DIMDEC
 70
     2
  9
$DIMTDEC
 70
     2
  9
$DIMALTU
 70
     2
  9
$DIMALTTD
 70
     3
  9
$DIMTXSTY
  7
Standard
  9
$DIMAUNIT
 70
     0
  9
$DIMADEC
 70
     2
  9
$DIMALTRND
 40
0.0
  9
$DIMAZIN
 70
     0
  9
$DIMDSEP
 70
    44
  9
$DIMATFIT
 70
     3
  9
$DIMFRAC
 70
     0
  9
$DIMLDRBLK
  1

  9
$DIMLUNIT
 70
     2
  9
$DIMLWD
 70
    -2
  9
$DIMLWE
 70
    -2
  9
$DIMTMOVE
 70
     0
  9
$LUNITS
 70
     2
  9
$LUPREC
 70
     2
  9
$SKETCHINC
 40
1.0
  9
$FILLETRAD
 40
10.0
  9
$AUNITS
 70
     0
  9
$AUPREC
 70
     2
  9
$MENU
  1
.
  9
$ELEVATION
 40
0.0
  9
$PELEVATION
 40
0.0
  9
$THICKNESS
 40
0.0
  9
$LIMCHECK
 70
     0
  9
$CHAMFERA
 40
0.0
  9
$CHAMFERB
 40
0.0
  9
$CHAMFERC
 40
0.0
  9
$CHAMFERD
 40
0.0
  9
$SKPOLY
 70
     0
  9
$TDCREATE
 40
2458985.699521632
  9
$TDUCREATE
 40
2458985.574521632
  9
$TDUPDATE
 40
2458985.699521887
  9
$TDUUPDATE
 40
2458985.574521887
  9
$TDINDWG
 40
0.0000000116
  9
$TDUSRTIMER
 40
0.0000000116
  9
$USRTIMER
 70
     1
  9
$ANGBASE
 50
0.0
  9
$ANGDIR
 70
     0
  9
$PDMODE
 70
     0
  9
$PDSIZE
 40
-1.0
  9
$PLINEWID
 40
0.0
  9
$SPLFRAME
 70
     0
  9
$SPLINETYPE
 70
     6
  9
$SPLINESEGS
 70
     8
  9
$HANDSEED
  5
EF
  9
$SURFTAB1
 70
     6
  9
$SURFTAB2
 70
     6
  9
$SURFTYPE
 70
     6
  9
$SURFU
 70
     6
  9
$SURFV
 70
     6
  9
$UCSBASE
  2

  9
$UCSNAME
  2

  9
$UCSORG
 10
0.0
 20
0.0
 30
0.0
  9
$UCSXDIR
 10
1.0
 20
0.0
 30
0.0
  9
$UCSYDIR
 10
0.0
 20
1.0
 30
0.0
  9
$UCSORTHOREF
  2

  9
$UCSORTHOVIEW
 70
     0
  9
$UCSORGTOP
 10
0.0
 20
0.0
 30
0.0
  9
$UCSORGBOTTOM
 10
0.0
 20
0.0
 30
0.0
  9
$UCSORGLEFT
 10
0.0
 20
0.0
 30
0.0
  9
$UCSORGRIGHT
 10
0.0
 20
0.0
 30
0.0
  9
$UCSORGFRONT
 10
0.0
 20
0.0
 30
0.0
  9
$UCSORGBACK
 10
0.0
 20
0.0
 30
0.0
  9
$PUCSBASE
  2

  9
$PUCSNAME
  2

  9
$PUCSORG
 10
0.0
 20
0.0
 30
0.0
  9
$PUCSXDIR
 10
1.0
 20
0.0
 30
0.0
  9
$PUCSYDIR
 10
0.0
 20
1.0
 30
0.0
  9
$PUCSORTHOREF
  2

  9
$PUCSORTHOVIEW
 70
     0
  9
$PUCSORGTOP
 10
0.0
 20
0.0
 30
0.0
  9
$PUCSORGBOTTOM
 10
0.0
 20
0.0
 30
0.0
  9
$PUCSORGLEFT
 10
0.0
 20
0.0
 30
0.0
  9
$PUCSORGRIGHT
 10
0.0
 20
0.0
 30
0.0
  9
$PUCSORGFRONT
 10
0.0
 20
0.0
 30
0.0
  9
$PUCSORGBACK
 10
0.0
 20
0.0
 30
0.0
  9
$USERI1
 70
     0
  9
$USERI2
 70
     0
  9
$USERI3
 70
     0
  9
$USERI4
 70
     0
  9
$USERI5
 70
     0
  9
$USERR1
 40
0.0
  9
$USERR2
 40
0.0
  9
$USERR3
 40
0.0
  9
$USERR4
 40
0.0
  9
$USERR5
 40
0.0
  9
$WORLDVIEW
 70
     1
  9
$SHADEDGE
 70
     3
  9
$SHADEDIF
 70
    70
  9
$TILEMODE
 70
     1
  9
$MAXACTVP
 70
    64
  9
$PINSBASE
 10
0.0
 20
0.0
 30
0.0
  9
$PLIMCHECK
 70
     0
  9
$PEXTMIN
 10
1.0000000000E+20
 20
1.0000000000E+20
 30
1.0000000000E+20
  9
$PEXTMAX
 10
-1.0000000000E+20
 20
-1.0000000000E+20
 30
-1.0000000000E+20
  9
$PLIMMIN
 10
0.0
 20
0.0
  9
$PLIMMAX
 10
420.0
 20
297.0
  9
$UNITMODE
 70
     0
  9
$VISRETAIN
 70
     1
  9
$PLINEGEN
 70
     0
  9
$PSLTSCALE
 70
     1
  9
$TREEDEPTH
 70
  3020
  9
$CMLSTYLE
  2
Standard
  9
$CMLJUST
 70
     0
  9
$CMLSCALE
 40
20.0
  9
$PROXYGRAPHICS
 70
     1
  9
$MEASUREMENT
 70
     1
  9
$CELWEIGHT
370
    -1
  9
$ENDCAPS
280
     0
  9
$JOINSTYLE
280
     0
  9
$LWDISPLAY
290
     1
  9
$INSUNITS
 70
     4
  9
$HYPERLINKBASE
  1

  9
$STYLESHEET
  1

  9
$XEDIT
290
     1
  9
$CEPSNTYPE
380
     0
  9
$PSTYLEMODE
290
     1
  9
$FINGERPRINTGUID
  2
{49a9f29c-5876-49e9-b230-aab5f3347862}
  9
$VERSIONGUID
  2
{FAEB1C32-E019-11D5-929B-00C0DF256EC4}
  9
$EXTNAMES
290
     1
  9
$PSVPSCALE
 40
0.0
  9
$OLESTARTUP
290
     0
  0
ENDSEC
  0
SECTION
  2
CLASSES
  0
CLASS
  1
ACDBDICTIONARYWDFLT
  2
AcDbDictionaryWithDefault
  3
ObjectDBX Classes
 90
        0
280
     0
281
     0
  0
CLASS
  1
VISUALSTYLE
  2
AcDbVisualStyle
  3
ObjectDBX Classes
 90
     4095
280
     0
281
     0
  0
CLASS
  1
MATERIAL
  2
AcDbMaterial
  3
ObjectDBX Classes
 90
     1153
280
     0
281
     0
  0
CLASS
  1
SCALE
  2
AcDbScale
  3
ObjectDBX Classes
 90
     1153
280
     0
281
     0
  0
CLASS
  1
TABLESTYLE
  2
AcDbTableStyle
  3
ObjectDBX Classes
 90
     4095
280
     0
281
     0
  0
CLASS
  1
MLEADERSTYLE
  2
AcDbMLeaderStyle
  3
ACDB_MLEADERSTYLE_CLASS
 90
     4095
280
     0
281
     0
  0
CLASS
  1
SUN
  2
AcDbSun
  3
SCENEOE
 90
     1153
280
     0
281
     0
  0
CLASS
  1
ACDBPLACEHOLDER
  2
AcDbPlaceHolder
  3
ObjectDBX Classes
 90
        0
280
     0
281
     0
  0
CLASS
  1
LAYOUT
  2
AcDbLayout
  3
ObjectDBX Classes
 90
        0
280
     0
281
     0
  0
ENDSEC
  0
SECTION
  2
TABLES
  0
TABLE
  2
VPORT
  5
8
330
0
100
AcDbSymbolTable
 70
     1
  0
VPORT
  5
29
330
8
100
AcDbSymbolTableRecord
100
AcDbViewportTableRecord
  2
*Active
 70
     0
 10
0.0
 20
0.0
 11
1.0
 21
1.0
 12
139.7
 22
107.95
 13
0.0
 23
0.0
 14
10.0
 24
10.0
 15
10.0
 25
10.0
 16
0.0
 26
0.0
 36
1.0
 17
0.0
 27
0.0
 37
0.0
 40
215.9
 41
1.2941176471
 42
50.0
 43
0.0
 44
0.0
 50
0.0
 51
0.0
 71
     0
 72
  2000
 73
     1
 74
     3
 75
     0
 76
     0
 77
     0
 78
     0
281
     0
 65
     1
110
0.0
120
0.0
130
0.0
111
1.0
121
0.0
131
0.0
112
0.0
122
1.0
132
0.0
 79
     0
146
0.0
  0
ENDTAB
  0
TABLE
  2
LTYPE
  5
5
330
0
100
AcDbSymbolTable
 70
     6
  0
LTYPE
  5
14
330
5
100
AcDbSymbolTableRecord
100
AcDbLinetypeTableRecord
  2
ByBlock
 70
     0
  3

 72
    65
 73
     0
 40
0.0
  0
LTYPE
  5
15
330
5
100
AcDbSymbolTableRecord
100
AcDbLinetypeTableRecord
  2
ByLayer
 70
     0
  3

 72
    65
 73
     0
 40
0.0
  0
LTYPE
  5
16
330
5
100
AcDbSymbolTableRecord
100
AcDbLinetypeTableRecord
  2
Continuous
 70
     0
  3
Solid line
 72
    65
 73
     0
 40
0.0
  0
LTYPE
  5
6E
330
5
100
AcDbSymbolTableRecord
100
AcDbLinetypeTableRecord
  2
HIDDEN
 70
     0
  3
Hidden __ __ __ __ __ __ __ __ __ __ __ __ __ __
 72
    65
 73
     2
 40
1.905
 49
1.27
 74
     0
 49
-0.635
 74
     0
  0
LTYPE
  5
6F
330
5
100
AcDbSymbolTableRecord
100
AcDbLinetypeTableRecord
  2
PHANTOM
 70
     0
  3
Phantom ______  __  __  ______  __  __  ______
 72
    65
 73
     6
 40
12.7
 49
6.35
 74
     0
 49
-1.27
 74
     0
 49
1.27
 74
     0
 49
-1.27
 74
     0
 49
1.27
 74
     0
 49
-1.27
 74
     0
  0
LTYPE
  5
70
330
5
100
AcDbSymbolTableRecord
100
AcDbLinetypeTableRecord
  2
CENTER
 70
     0
  3
Center ____ _ ____ _ ____ _ ____ _ ____ _ ____
 72
    65
 73
     4
 40
10.16
 49
6.35
 74
     0
 49
-1.27
 74
     0
 49
1.27
 74
     0
 49
-1.27
 74
     0
  0
LTYPE
  5
71
330
5
100
AcDbSymbolTableRecord
100
AcDbLinetypeTableRecord
  2
CENTERX2
 70
     0
  3
Center (2x) ________  __  ________  __  _____
 72
    65
 73
     4
 40
20.32
 49
12.7
 74
     0
 49
-2.54
 74
     0
 49
2.54
 74
     0
 49
-2.54
 74
     0
  0
LTYPE
  5
72
330
5
100
AcDbSymbolTableRecord
100
AcDbLinetypeTableRecord
  2
DOT2
 70
     0
  3
Dot (.5x) ........................................
 72
    65
 73
     2
 40
0.635
 49
0.0
 74
     0
 49
-0.635
 74
     0
  0
ENDTAB
  0
TABLE
  2
LAYER
  5
2
330
0
100
AcDbSymbolTable
 70
    17
  0
LAYER
  5
10
330
2
100
AcDbSymbolTableRecord
100
AcDbLayerTableRecord
  2
0
 70
     0
 62
     7
  6
Continuous
370
    -3
390
F
  0
LAYER
  5
73
330
2
100
AcDbSymbolTableRecord
100
AcDbLayerTableRecord
  2
FORMAT
 70
     0
 62
     7
  6
Continuous
370
    -3
390
F
  0
LAYER
  5
74
330
2
100
AcDbSymbolTableRecord
100
AcDbLayerTableRecord
  2
YARDIMCI_GEOMETRI
 70
     0
 62
    -6
  6
Continuous
290
     0
370
    -3
390
F
  0
LAYER
  5
75
330
2
100
AcDbSymbolTableRecord
100
AcDbLayerTableRecord
  2
SAYFA_CERCEVESI
 70
     0
 62
     7
  6
Continuous
370
    25
390
F
  0
LAYER
  5
76
330
2
100
AcDbSymbolTableRecord
100
AcDbLayerTableRecord
  2
ANTET
 70
     0
 62
     7
  6
Continuous
370
    -3
390
F
  0
LAYER
  5
77
330
2
100
AcDbSymbolTableRecord
100
AcDbLayerTableRecord
  2
OLCU
 70
     0
 62
   150
  6
Continuous
370
    -3
390
F
  0
LAYER
  5
78
330
2
100
AcDbSymbolTableRecord
100
AcDbLayerTableRecord
  2
METIN
 70
     0
 62
    96
  6
Continuous
370
    -3
390
F
  0
LAYER
  5
79
330
2
100
AcDbSymbolTableRecord
100
AcDbLayerTableRecord
  2
BALON
 70
     0
 62
     5
  6
Continuous
370
    -3
390
F
  0
LAYER
  5
7A
330
2
100
AcDbSymbolTableRecord
100
AcDbLayerTableRecord
  2
VURGU
 70
     0
 62
     7
  6
Continuous
370
    -3
390
F
  0
LAYER
  5
7B
330
2
100
AcDbSymbolTableRecord
100
AcDbLayerTableRecord
  2
SILIK
 70
     0
 62
     7
  6
Continuous
370
    -3
390
F
  0
LAYER
  5
7C
330
2
100
AcDbSymbolTableRecord
100
AcDbLayerTableRecord
  2
MODEL
 70
     0
 62
     7
  6
Continuous
370
    -3
390
F
  0
LAYER
  5
7D
330
2
100
AcDbSymbolTableRecord
100
AcDbLayerTableRecord
  2
DETAYLANDıRMA
 70
     0
 62
   190
  6
Continuous
370
    -3
390
F
  0
LAYER
  5
7E
330
2
100
AcDbSymbolTableRecord
100
AcDbLayerTableRecord
  2
TOLERANS
 70
     0
 62
   230
  6
Continuous
370
    -3
390
F
  0
LAYER
  5
7F
330
2
100
AcDbSymbolTableRecord
100
AcDbLayerTableRecord
  2
MERKEZ_CIZGILERI
 70
     0
 62
    30
  6
Continuous
370
    -3
390
F
  0
LAYER
  5
80
330
2
100
AcDbSymbolTableRecord
100
AcDbLayerTableRecord
  2
KESIT-DETAY_CIZGILERI
 70
     0
 62
     7
  6
Continuous
370
    -3
390
F
  0
LAYER
  5
81
330
2
100
AcDbSymbolTableRecord
100
AcDbLayerTableRecord
  2
\U+041E\U+0421\U+0415\U+0412\U+042B\U+0415
 70
     0
 62
     7
  6
Continuous
370
    -3
390
F
  0
LAYER
  5
82
330
2
100
AcDbSymbolTableRecord
100
AcDbLayerTableRecord
  2
\U+0412\U+041E\U+0414\U+042F\U+041D\U+042B\U+0415_\U+0417\U+041D\U+0410\U+041A\U+0418
 70
     0
 62
    11
  6
Continuous
370
    -3
390
F
  0
ENDTAB
  0
TABLE
  2
STYLE
  5
3
330
0
100
AcDbSymbolTable
 70
     1
  0
STYLE
  5
11
330
3
100
AcDbSymbolTableRecord
100
AcDbTextStyleTableRecord
  2
Standard
 70
     0
 40
0.0
 41
1.0
 50
0.0
 71
     0
 42
3.5
  3
txt
  4

  0
ENDTAB
  0
TABLE
  2
VIEW
  5
6
330
0
100
AcDbSymbolTable
 70
     0
  0
ENDTAB
  0
TABLE
  2
UCS
  5
7
330
0
100
AcDbSymbolTable
 70
     0
  0
ENDTAB
  0
TABLE
  2
APPID
  5
9
330
0
100
AcDbSymbolTable
 70
     1
  0
APPID
  5
12
330
9
100
AcDbSymbolTableRecord
100
AcDbRegAppTableRecord
  2
ACAD
 70
     0
  0
ENDTAB
  0
TABLE
  2
DIMSTYLE
  5
A
330
0
100
AcDbSymbolTable
 70
     1
100
AcDbDimStyleTable
  0
DIMSTYLE
105
27
330
A
100
AcDbSymbolTableRecord
100
AcDbDimStyleTableRecord
  2
ISO-25
 70
     0
 41
2.5
 42
0.625
 43
3.75
 44
1.25
 73
     0
 74
     0
 77
     1
 78
     8
140
2.5
141
2.5
143
0.0393700787
147
0.625
171
     3
172
     1
178
     0
271
     2
272
     2
274
     3
278
    44
283
     0
284
     8
340
11
  0
ENDTAB
  0
TABLE
  2
BLOCK_RECORD
  5
1
330
0
100
AcDbSymbolTable
 70
     2
  0
BLOCK_RECORD
  5
1F
330
1
100
AcDbSymbolTableRecord
100
AcDbBlockTableRecord
  2
*Model_Space
340
22
  0
BLOCK_RECORD
  5
1B
330
1
100
AcDbSymbolTableRecord
100
AcDbBlockTableRecord
  2
*Paper_Space
340
1E
  0
BLOCK_RECORD
  5
23
330
1
100
AcDbSymbolTableRecord
100
AcDbBlockTableRecord
  2
*Paper_Space0
340
26
  0
BLOCK_RECORD
  5
88
330
1
100
AcDbSymbolTableRecord
100
AcDbBlockTableRecord
  2
SW_CENTERMARKSYMBOL_0
340
0
102
{BLKREFS
331
93
102
}
  0
ENDTAB
  0
ENDSEC
  0
SECTION
  2
BLOCKS
  0
BLOCK
  5
20
330
1F
100
AcDbEntity
  8
0
100
AcDbBlockBegin
  2
*Model_Space
 70
     0
 10
0.0
 20
0.0
 30
0.0
  3
*Model_Space
  1

  0
ENDBLK
  5
21
330
1F
100
AcDbEntity
  8
0
100
AcDbBlockEnd
  0
BLOCK
  5
1C
330
1B
100
AcDbEntity
 67
     1
  8
0
100
AcDbBlockBegin
  2
*Paper_Space
 70
     0
 10
0.0
 20
0.0
 30
0.0
  3
*Paper_Space
  1

  0
ENDBLK
  5
1D
330
1B
100
AcDbEntity
 67
     1
  8
0
100
AcDbBlockEnd
  0
BLOCK
  5
24
330
23
100
AcDbEntity
  8
0
100
AcDbBlockBegin
  2
*Paper_Space0
 70
     0
 10
0.0
 20
0.0
 30
0.0
  3
*Paper_Space0
  1

  0
ENDBLK
  5
25
330
23
100
AcDbEntity
  8
0
100
AcDbBlockEnd
  0
BLOCK
  5
89
330
88
100
AcDbEntity
  8
0
100
AcDbBlockBegin
  2
SW_CENTERMARKSYMBOL_0
 70
     0
 10
0.0
 20
0.0
 30
0.0
  3
SW_CENTERMARKSYMBOL_0
  1

  0
LINE
  5
8B
330
88
100
AcDbEntity
  8
FORMAT
 62
     0
100
AcDbLine
 10
0.0
 20
0.0
 30
0.0
 11
0.0
 21
2.5
 31
0.0
  0
LINE
  5
8C
330
88
100
AcDbEntity
  8
FORMAT
 62
     0
100
AcDbLine
 10
0.0
 20
0.0
 30
0.0
 11
-2.5
 21
0.0
 31
0.0
  0
LINE
  5
8D
330
88
100
AcDbEntity
  8
FORMAT
 62
     0
100
AcDbLine
 10
0.0
 20
0.0
 30
0.0
 11
0.0
 21
-2.5
 31
0.0
  0
LINE
  5
8E
330
88
100
AcDbEntity
  8
FORMAT
 62
     0
100
AcDbLine
 10
0.0
 20
0.0
 30
0.0
 11
2.5
 21
0.0
 31
0.0
  0
LINE
  5
8F
330
88
100
AcDbEntity
  8
FORMAT
 62
     0
100
AcDbLine
 10
0.0
 20
5.0
 30
0.0
 11
0.0
 21
115.0
 31
0.0
  0
LINE
  5
90
330
88
100
AcDbEntity
  8
FORMAT
 62
     0
100
AcDbLine
 10
-5.0
 20
0.0
 30
0.0
 11
-115.0
 21
0.0
 31
0.0
  0
LINE
  5
91
330
88
100
AcDbEntity
  8
FORMAT
 62
     0
100
AcDbLine
 10
0.0
 20
-5.0
 30
0.0
 11
0.0
 21
-115.0
 31
0.0
  0
LINE
  5
92
330
88
100
AcDbEntity
  8
FORMAT
 62
     0
100
AcDbLine
 10
5.0
 20
0.0
 30
0.0
 11
115.0
 21
0.0
 31
0.0
  0
ENDBLK
  5
8A
330
88
100
AcDbEntity
  8
0
100
AcDbBlockEnd
  0
ENDSEC
  0
SECTION
  2
ENTITIES
  0
CIRCLE
  5
83
330
1F
100
AcDbEntity
  8
0
  6
Continuous
 62
     7
370
    25
100
AcDbCircle
 10
139.395004093
 20
107.5851680021
 30
0.0
 40
112.5
  0
CIRCLE
  5
84
330
1F
100
AcDbEntity
  8
0
  6
Continuous
 62
     7
370
    25
100
AcDbCircle
 10
139.395004093
 20
107.5851680021
 30
0.0
 40
92.0
  0
CIRCLE
  5
85
330
1F
100
AcDbEntity
  8
0
  6
Continuous
 62
     7
370
    25
100
AcDbCircle
 10
139.395004093
 20
107.5851680021
 30
0.0
 40
91.91760466342627
  0
CIRCLE
  5
86
330
1F
100
AcDbEntity
  8
0
  6
Continuous
 62
     7
370
    25
100
AcDbCircle
 10
139.395004093
 20
107.5851680021
 30
0.0
 40
81.88239533657375
  0
CIRCLE
  5
87
330
1F
100
AcDbEntity
  8
0
  6
Continuous
 62
     7
370
    25
100
AcDbCircle
 10
139.395004093
 20
107.5851680021
 30
0.0
 40
81.80000000000001
  0
INSERT
  5
93
330
1F
100
AcDbEntity
  8
FORMAT
 62
     7
100
AcDbBlockReference
  2
SW_CENTERMARKSYMBOL_0
 10
139.395004093
 20
107.5851680021
 30
0.0
  0
ARC
  5
94
330
1F
100
AcDbEntity
  8
0
  6
Continuous
 62
     7
370
    25
100
AcDbCircle
 10
-244.7285103427
 20
218.0851680021
 30
0.0
 40
2.0
100
AcDbArc
 50
79.5839716924
 51
90.0
  0
ARC
  5
95
330
1F
100
AcDbEntity
  8
0
  6
Continuous
 62
     7
370
    25
100
AcDbCircle
 10
-244.7285103427
 20
-2.9148319979
 30
0.0
 40
2.000000000000015
100
AcDbArc
 50
270.0
 51
280.4160283076
  0
LINE
  5
96
330
1F
100
AcDbEntity
  8
0
  6
Continuous
 62
     7
370
    25
100
AcDbLine
 10
-244.7285100126
 20
220.0851650219
 30
0.0
 11
-364.5462139749
 21
220.0851650219
 31
0.0
  0
LINE
  5
97
330
1F
100
AcDbEntity
  8
0
  6
Continuous
 62
     7
370
    25
100
AcDbLine
 10
-364.5462139749
 20
-4.9148290177
 30
0.0
 11
-244.7285100126
 21
-4.9148290177
 31
0.0
  0
LINE
  5
98
330
1F
100
AcDbEntity
  8
0
  6
Continuous
 62
     7
370
    25
100
AcDbLine
 10
-244.3669221603
 20
-4.8818750997
 30
0.0
 11
-176.7255074584
 21
7.552212594
 31
0.0
  0
LINE
  5
99
330
1F
100
AcDbEntity
  8
0
  6
Continuous
 62
     7
370
    25
100
AcDbLine
 10
-176.7255074584
 20
207.6181234102
 30
0.0
 11
-244.3669221603
 21
220.0522111039
 31
0.0
  0
ARC
  5
9A
330
1F
100
AcDbEntity
  8
0
  6
Continuous
 62
     7
370
    25
100
AcDbCircle
 10
-176.3639176911
 20
209.5851680021
 30
0.0
 40
2.0
100
AcDbArc
 50
259.5839716924
 51
270.0
  0
ARC
  5
9B
330
1F
100
AcDbEntity
  8
0
  6
Continuous
 62
     7
370
    25
100
AcDbCircle
 10
-176.3639176911
 20
5.5851680021
 30
0.0
 40
2.000000000000002
100
AcDbArc
 50
90.0
 51
100.4160283076
  0
LINE
  5
9C
330
1F
100
AcDbEntity
  8
0
  6
Continuous
 62
     7
370
    25
100
AcDbLine
 10
-64.5462169551
 20
207.5851694922
 30
0.0
 11
-176.3639158809
 21
207.5851694922
 31
0.0
  0
LINE
  5
9D
330
1F
100
AcDbEntity
  8
0
  6
Continuous
 62
     7
370
    25
100
AcDbLine
 10
-176.3639158809
 20
7.585166512
 30
0.0
 11
-64.5462169551
 21
7.585166512
 31
0.0
  0
LINE
  5
9E
330
1F
100
AcDbEntity
  8
0
  6
Continuous
 62
     7
370
    25
100
AcDbLine
 10
-364.5462139749
 20
220.0851650219
 30
0.0
 11
-364.5462139749
 21
-4.9148290177
 31
0.0
  0
LINE
  5
9F
330
1F
100
AcDbEntity
  8
0
  6
Continuous
 62
     7
370
    25
100
AcDbLine
 10
-64.5462169551
 20
207.5851694922
 30
0.0
 11
-64.5462169551
 21
7.585166512
 31
0.0
  0
LINE
  5
A0
330
1F
100
AcDbEntity
  8
0
  6
Continuous
 62
     1
370
    25
100
AcDbLine
 10
-244.3669221603
 20
220.0522111039
 30
0.0
 11
-244.3669221603
 21
-4.8818750997
 31
0.0
  0
LINE
  5
A1
330
1F
100
AcDbEntity
  8
0
  6
Continuous
 62
     1
370
    25
100
AcDbLine
 10
-244.7285100126
 20
220.0851650219
 30
0.0
 11
-244.7285100126
 21
-4.9148290177
 31
0.0
  0
LINE
  5
A2
330
1F
100
AcDbEntity
  8
0
  6
Continuous
 62
     1
370
    25
100
AcDbLine
 10
-176.7255074584
 20
207.6181234102
 30
0.0
 11
-176.7255074584
 21
7.552212594
 31
0.0
  0
LINE
  5
A3
330
1F
100
AcDbEntity
  8
0
  6
Continuous
 62
     1
370
    25
100
AcDbLine
 10
-176.3639158809
 20
207.5851694922
 30
0.0
 11
-176.3639158809
 21
7.585166512
 31
0.0
  0
ARC
  5
A4
330
1F
100
AcDbEntity
  8
0
  6
Continuous
 62
     7
370
    25
100
AcDbCircle
 10
500.2691592307
 20
-2.9148319979
 30
0.0
 40
2.000000000000016
100
AcDbArc
 50
259.5839716924
 51
270.0
  0
ARC
  5
A5
330
1F
100
AcDbEntity
  8
0
  6
Continuous
 62
     7
370
    25
100
AcDbCircle
 10
500.2691592307
 20
218.0851680021
 30
0.0
 40
2.000000000000007
100
AcDbArc
 50
90.0
 51
100.4160283076
  0
LINE
  5
A6
330
1F
100
AcDbEntity
  8
0
  6
Continuous
 62
     7
370
    25
100
AcDbLine
 10
500.2691589006
 20
-4.9148290177
 30
0.0
 11
620.086862863
 21
-4.9148290177
 31
0.0
  0
LINE
  5
A7
330
1F
100
AcDbEntity
  8
0
  6
Continuous
 62
     7
370
    25
100
AcDbLine
 10
620.086862863
 20
220.0851650219
 30
0.0
 11
500.2691589006
 21
220.0851650219
 31
0.0
  0
LINE
  5
A8
330
1F
100
AcDbEntity
  8
0
  6
Continuous
 62
     7
370
    25
100
AcDbLine
 10
499.9075710484
 20
220.0522111039
 30
0.0
 11
432.2661563465
 21
207.6181234102
 31
0.0
  0
LINE
  5
A9
330
1F
100
AcDbEntity
  8
0
  6
Continuous
 62
     7
370
    25
100
AcDbLine
 10
432.2661563465
 20
7.552212594
 30
0.0
 11
499.9075710484
 21
-4.8818750997
 31
0.0
  0
ARC
  5
AA
330
1F
100
AcDbEntity
  8
0
  6
Continuous
 62
     7
370
    25
100
AcDbCircle
 10
431.9045665791
 20
5.5851680021
 30
0.0
 40
2.000000000000002
100
AcDbArc
 50
79.5839716924
 51
90.0
  0
ARC
  5
AB
330
1F
100
AcDbEntity
  8
0
  6
Continuous
 62
     7
370
    25
100
AcDbCircle
 10
431.9045665791
 20
209.5851680021
 30
0.0
 40
2.0
100
AcDbArc
 50
270.0
 51
280.4160283076
  0
LINE
  5
AC
330
1F
100
AcDbEntity
  8
0
  6
Continuous
 62
     7
370
    25
100
AcDbLine
 10
320.0868658432
 20
7.585166512
 30
0.0
 11
431.9045647689
 21
7.585166512
 31
0.0
  0
LINE
  5
AD
330
1F
100
AcDbEntity
  8
0
  6
Continuous
 62
     7
370
    25
100
AcDbLine
 10
431.9045647689
 20
207.5851694922
 30
0.0
 11
320.0868658432
 21
207.5851694922
 31
0.0
  0
LINE
  5
AE
330
1F
100
AcDbEntity
  8
0
  6
Continuous
 62
     7
370
    25
100
AcDbLine
 10
620.086862863
 20
107.5851680021
 30
0.0
 11
620.086862863
 21
220.0851650219
 31
0.0
  0
LINE
  5
AF
330
1F
100
AcDbEntity
  8
0
  6
Continuous
 62
     7
370
    25
100
AcDbLine
 10
620.086862863
 20
-4.9148290177
 30
0.0
 11
620.086862863
 21
107.5851680021
 31
0.0
  0
LINE
  5
B0
330
1F
100
AcDbEntity
  8
0
  6
Continuous
 62
     7
370
    25
100
AcDbLine
 10
320.0868658432
 20
107.5851680021
 30
0.0
 11
320.0868658432
 21
207.5851694922
 31
0.0
  0
LINE
  5
B1
330
1F
100
AcDbEntity
  8
0
  6
Continuous
 62
     7
370
    25
100
AcDbLine
 10
320.0868658432
 20
7.585166512
 30
0.0
 11
320.0868658432
 21
107.5851680021
 31
0.0
  0
LINE
  5
B2
330
1F
100
AcDbEntity
  8
0
  6
Continuous
 62
     1
370
    25
100
AcDbLine
 10
499.9075710484
 20
107.5851680021
 30
0.0
 11
499.9075710484
 21
220.0522111039
 31
0.0
  0
LINE
  5
B3
330
1F
100
AcDbEntity
  8
0
  6
Continuous
 62
     1
370
    25
100
AcDbLine
 10
499.9075710484
 20
-4.8818750997
 30
0.0
 11
499.9075710484
 21
107.5851680021
 31
0.0
  0
LINE
  5
B4
330
1F
100
AcDbEntity
  8
0
  6
Continuous
 62
     1
370
    25
100
AcDbLine
 10
500.2691589006
 20
107.5851680021
 30
0.0
 11
500.2691589006
 21
220.0851650219
 31
0.0
  0
LINE
  5
B5
330
1F
100
AcDbEntity
  8
0
  6
Continuous
 62
     1
370
    25
100
AcDbLine
 10
500.2691589006
 20
-4.9148290177
 30
0.0
 11
500.2691589006
 21
107.5851680021
 31
0.0
  0
LINE
  5
B6
330
1F
100
AcDbEntity
  8
0
  6
Continuous
 62
     1
370
    25
100
AcDbLine
 10
432.2661563465
 20
107.5851680021
 30
0.0
 11
432.2661563465
 21
207.6181234102
 31
0.0
  0
LINE
  5
B7
330
1F
100
AcDbEntity
  8
0
  6
Continuous
 62
     1
370
    25
100
AcDbLine
 10
432.2661563465
 20
7.552212594
 30
0.0
 11
432.2661563465
 21
107.5851680021
 31
0.0
  0
LINE
  5
B8
330
1F
100
AcDbEntity
  8
0
  6
Continuous
 62
     1
370
    25
100
AcDbLine
 10
431.9045647689
 20
107.5851680021
 30
0.0
 11
431.9045647689
 21
207.5851694922
 31
0.0
  0
LINE
  5
B9
330
1F
100
AcDbEntity
  8
0
  6
Continuous
 62
     1
370
    25
100
AcDbLine
 10
431.9045647689
 20
7.585166512
 30
0.0
 11
431.9045647689
 21
107.5851680021
 31
0.0
  0
ARC
  5
BA
330
1F
100
AcDbEntity
  8
0
  6
Continuous
 62
     7
370
    25
100
AcDbCircle
 10
249.895004093
 20
418.8368218376
 30
0.0
 40
2.000000000000052
100
AcDbArc
 50
349.5839716924
 51
360.0
  0
ARC
  5
BB
330
1F
100
AcDbEntity
  8
0
  6
Continuous
 62
     7
370
    25
100
AcDbCircle
 10
28.895004093
 20
418.8368218376
 30
0.0
 40
2.000000000000014
100
AcDbArc
 50
180.0
 51
190.4160283076
  0
LINE
  5
BC
330
1F
100
AcDbEntity
  8
0
  6
Continuous
 62
     7
370
    25
100
AcDbLine
 10
251.8950011128
 20
418.8368215075
 30
0.0
 11
251.8950011128
 21
538.6545254699
 31
0.0
  0
LINE
  5
BD
330
1F
100
AcDbEntity
  8
0
  6
Continuous
 62
     7
370
    25
100
AcDbLine
 10
26.8950070733
 20
538.6545254699
 30
0.0
 11
26.8950070733
 21
418.8368215075
 31
0.0
  0
LINE
  5
BE
330
1F
100
AcDbEntity
  8
0
  6
Continuous
 62
     7
370
    25
100
AcDbLine
 10
26.9279609913
 20
418.4752336553
 30
0.0
 11
39.362048685
 21
350.8338189534
 31
0.0
  0
LINE
  5
BF
330
1F
100
AcDbEntity
  8
0
  6
Continuous
 62
     7
370
    25
100
AcDbLine
 10
239.4279595011
 20
350.8338189534
 30
0.0
 11
251.8620471948
 21
418.4752336553
 31
0.0
  0
ARC
  5
C0
330
1F
100
AcDbEntity
  8
0
  6
Continuous
 62
     7
370
    25
100
AcDbCircle
 10
241.395004093
 20
350.472229186
 30
0.0
 40
2.000000000000007
100
AcDbArc
 50
169.5839716924
 51
180.0
  0
ARC
  5
C1
330
1F
100
AcDbEntity
  8
0
  6
Continuous
 62
     7
370
    25
100
AcDbCircle
 10
37.395004093
 20
350.472229186
 30
0.0
 40
2.0
100
AcDbArc
 50
0.0
 51
10.4160283076
  0
LINE
  5
C2
330
1F
100
AcDbEntity
  8
0
  6
Continuous
 62
     7
370
    25
100
AcDbLine
 10
239.3950055832
 20
238.6545284501
 30
0.0
 11
239.3950055832
 21
350.4722273758
 31
0.0
  0
LINE
  5
C3
330
1F
100
AcDbEntity
  8
0
  6
Continuous
 62
     7
370
    25
100
AcDbLine
 10
39.3950026029
 20
350.4722273758
 30
0.0
 11
39.3950026029
 21
238.6545284501
 31
0.0
  0
LINE
  5
C4
330
1F
100
AcDbEntity
  8
0
  6
Continuous
 62
     7
370
    25
100
AcDbLine
 10
251.8950011128
 20
538.6545254699
 30
0.0
 11
26.8950070733
 21
538.6545254699
 31
0.0
  0
LINE
  5
C5
330
1F
100
AcDbEntity
  8
0
  6
Continuous
 62
     7
370
    25
100
AcDbLine
 10
239.3950055832
 20
238.6545284501
 30
0.0
 11
39.3950026029
 21
238.6545284501
 31
0.0
  0
LINE
  5
C6
330
1F
100
AcDbEntity
  8
0
  6
Continuous
 62
     1
370
    25
100
AcDbLine
 10
251.8620471948
 20
418.4752336553
 30
0.0
 11
26.9279609913
 21
418.4752336553
 31
0.0
  0
LINE
  5
C7
330
1F
100
AcDbEntity
  8
0
  6
Continuous
 62
     1
370
    25
100
AcDbLine
 10
251.8950011128
 20
418.8368215075
 30
0.0
 11
26.8950070733
 21
418.8368215075
 31
0.0
  0
LINE
  5
C8
330
1F
100
AcDbEntity
  8
0
  6
Continuous
 62
     1
370
    25
100
AcDbLine
 10
239.4279595011
 20
350.8338189534
 30
0.0
 11
39.362048685
 21
350.8338189534
 31
0.0
  0
LINE
  5
C9
330
1F
100
AcDbEntity
  8
0
  6
Continuous
 62
     1
370
    25
100
AcDbLine
 10
239.3950055832
 20
350.4722273758
 30
0.0
 11
39.3950026029
 21
350.4722273758
 31
0.0
  0
ARC
  5
CA
330
1F
100
AcDbEntity
  8
0
  6
Continuous
 62
     7
370
    25
100
AcDbCircle
 10
28.895004093
 20
-236.8081201309
 30
0.0
 40
2.000000000000014
100
AcDbArc
 50
169.5839716924
 51
180.0
  0
ARC
  5
CB
330
1F
100
AcDbEntity
  8
0
  6
Continuous
 62
     7
370
    25
100
AcDbCircle
 10
249.895004093
 20
-236.8081201309
 30
0.0
 40
2.000000000000052
100
AcDbArc
 50
0.0
 51
10.4160283076
  0
LINE
  5
CC
330
1F
100
AcDbEntity
  8
0
  6
Continuous
 62
     7
370
    25
100
AcDbLine
 10
26.8950070733
 20
-236.8081198008
 30
0.0
 11
26.8950070733
 21
-356.6258237631
 31
0.0
  0
LINE
  5
CD
330
1F
100
AcDbEntity
  8
0
  6
Continuous
 62
     7
370
    25
100
AcDbLine
 10
251.8950011128
 20
-356.6258237631
 30
0.0
 11
251.8950011128
 21
-236.8081198008
 31
0.0
  0
LINE
  5
CE
330
1F
100
AcDbEntity
  8
0
  6
Continuous
 62
     7
370
    25
100
AcDbLine
 10
251.8620471948
 20
-236.4465319486
 30
0.0
 11
239.4279595011
 21
-168.8051172466
 31
0.0
  0
LINE
  5
CF
330
1F
100
AcDbEntity
  8
0
  6
Continuous
 62
     7
370
    25
100
AcDbLine
 10
39.362048685
 20
-168.8051172466
 30
0.0
 11
26.9279609913
 21
-236.4465319486
 31
0.0
  0
ARC
  5
D0
330
1F
100
AcDbEntity
  8
0
  6
Continuous
 62
     7
370
    25
100
AcDbCircle
 10
37.395004093
 20
-168.4435274793
 30
0.0
 40
2.0
100
AcDbArc
 50
349.5839716924
 51
0.0
  0
ARC
  5
D1
330
1F
100
AcDbEntity
  8
0
  6
Continuous
 62
     7
370
    25
100
AcDbCircle
 10
241.395004093
 20
-168.4435274793
 30
0.0
 40
2.0
100
AcDbArc
 50
180.0
 51
190.4160283076
  0
LINE
  5
D2
330
1F
100
AcDbEntity
  8
0
  6
Continuous
 62
     7
370
    25
100
AcDbLine
 10
39.3950026029
 20
-56.6258267434
 30
0.0
 11
39.3950026029
 21
-168.4435256691
 31
0.0
  0
LINE
  5
D3
330
1F
100
AcDbEntity
  8
0
  6
Continuous
 62
     7
370
    25
100
AcDbLine
 10
239.3950055832
 20
-168.4435256691
 30
0.0
 11
239.3950055832
 21
-56.6258267434
 31
0.0
  0
LINE
  5
D4
330
1F
100
AcDbEntity
  8
0
  6
Continuous
 62
     7
370
    25
100
AcDbLine
 10
26.8950070733
 20
-356.6258237631
 30
0.0
 11
251.8950011128
 21
-356.6258237631
 31
0.0
  0
LINE
  5
D5
330
1F
100
AcDbEntity
  8
0
  6
Continuous
 62
     7
370
    25
100
AcDbLine
 10
39.3950026029
 20
-56.6258267434
 30
0.0
 11
239.3950055832
 21
-56.6258267434
 31
0.0
  0
LINE
  5
D6
330
1F
100
AcDbEntity
  8
0
  6
Continuous
 62
     1
370
    25
100
AcDbLine
 10
26.9279609913
 20
-236.4465319486
 30
0.0
 11
251.8620471948
 21
-236.4465319486
 31
0.0
  0
LINE
  5
D7
330
1F
100
AcDbEntity
  8
0
  6
Continuous
 62
     1
370
    25
100
AcDbLine
 10
26.8950070733
 20
-236.8081198008
 30
0.0
 11
251.8950011128
 21
-236.8081198008
 31
0.0
  0
LINE
  5
D8
330
1F
100
AcDbEntity
  8
0
  6
Continuous
 62
     1
370
    25
100
AcDbLine
 10
39.362048685
 20
-168.8051172466
 30
0.0
 11
239.4279595011
 21
-168.8051172466
 31
0.0
  0
LINE
  5
D9
330
1F
100
AcDbEntity
  8
0
  6
Continuous
 62
     1
370
    25
100
AcDbLine
 10
39.3950026029
 20
-168.4435256691
 30
0.0
 11
239.3950055832
 21
-168.4435256691
 31
0.0
  0
LINE
  5
DA
330
1F
100
AcDbEntity
  8
0
  6
Continuous
 62
     7
370
    25
100
AcDbLine
 10
508.3786754399
 20
-90.3952321057
 30
0.0
 11
423.654764462
 21
-41.4851593783
 31
0.0
  0
LINE
  5
DB
330
1F
100
AcDbEntity
  8
0
  6
Continuous
 62
     7
370
    25
100
AcDbLine
 10
311.1639090924
 20
-236.3461583107
 30
0.0
 11
395.8878200704
 21
-285.2562310381
 31
0.0
  0
LINE
  5
DC
330
1F
100
AcDbEntity
  8
0
  6
Continuous
 62
     7
370
    25
100
AcDbLine
 10
403.9476699124
 20
-288.7691295945
 30
0.0
 11
457.1329229281
 21
-305.2368874472
 31
0.0
  0
LINE
  5
DD
330
1F
100
AcDbEntity
  8
0
  6
Continuous
 62
     7
370
    25
100
AcDbLine
 10
556.3090277731
 20
-133.4402223733
 30
0.0
 11
515.4513512594
 21
-95.6181608986
 31
0.0
  0
LINE
  5
DE
330
1F
100
AcDbEntity
  8
0
  6
Continuous
 62
     7
370
    25
100
AcDbLine
 10
629.5373041602
 20
-174.7719876768
 30
0.0
 11
553.6052942703
 21
-130.9373714134
 31
0.0
  0
LINE
  5
DF
330
1F
100
AcDbEntity
  8
0
  6
Continuous
 62
     7
370
    25
100
AcDbLine
 10
453.6134240014
 20
-304.1471448624
 30
0.0
 11
529.5454338914
 21
-347.9817611259
 31
0.0
  0
LWPOLYLINE
  5
E0
330
1F
100
AcDbEntity
  8
0
  6
Continuous
 62
     7
370
    25
100
AcDbPolyline
 90
      122
 70
   128
 43
0.0
 10
287.8598260011
 20
-184.838613918
 10
287.9670475837
 20
-180.0087876538
 10
288.288438377
 20
-175.0681782402
 10
288.8231238339
 20
-170.0301085248
 10
289.5696604249
 20
-164.90816138
 10
290.5260409062
 20
-159.7161420608
 10
291.6896837835
 20
-154.468047405
 10
293.0574543848
 20
-149.1780278119
 10
294.6256648609
 20
-143.8603431357
 10
296.3900899902
 20
-138.5293261843
 10
298.3459671789
 20
-133.1993523015
 10
300.4880280709
 20
-127.8847876577
 10
302.810498548
 20
-122.5999588322
 10
305.3071145347
 20
-117.3591163116
 10
307.9711430721
 20
-112.1763919067
 10
310.7954139275
 20
-107.0657440013
 10
313.7722985214
 20
-102.040957551
 10
316.8937836842
 20
-97.1155832526
 10
320.1514505829
 20
-92.3028888727
 10
323.5365142337
 20
-87.6158607722
 10
327.039849844
 20
-83.0671278626
 10
330.6520165196
 20
-78.6689479198
 10
334.3632757045
 20
-74.433184772
 10
338.1636201562
 20
-70.3712550702
 10
342.0428029223
 20
-66.4941054765
 10
345.9903729013
 20
-62.8121982192
 10
349.9956840628
 20
-59.3354449333
 10
354.047938911
 20
-56.0732302384
 10
358.1362135096
 20
-53.0343486234
 10
362.2494874456
 20
-50.2269810646
 10
366.3766709116
 20
-47.6587037261
 10
370.50663821
 20
-45.3364382002
 10
374.6282562341
 20
-43.2664472325
 10
378.7304122924
 20
-41.454312576
 10
382.8020494226
 20
-39.9049085208
 10
386.8321916633
 20
-38.622429891
 10
390.809970396
 20
-37.6103160008
 10
394.7246671503
 20
-36.8713050319
 10
398.5657280918
 20
-36.4073891672
 10
402.3227956327
 20
-36.2198206777
 10
405.9857413583
 20
-36.3090989975
 10
409.5446923693
 20
-36.6749859358
 10
412.9900523553
 20
-37.3164935114
 10
416.312541107
 20
-38.2318976445
 10
419.5031892482
 20
-39.418729031
 10
422.5534040901
 20
-40.8737837949
 10
425.4549564606
 20
-42.5931432592
 10
428.2000333877
 20
-44.5721678671
 10
430.7812275627
 20
-46.8055275997
 10
433.1915847556
 20
-49.2871989384
 10
435.4245985467
 20
-52.0104952828
 10
437.4742577417
 20
-54.9680730393
 10
439.3350358351
 20
-58.1519559544
 10
441.0019173519
 20
-61.5535655362
 10
442.4704031161
 20
-65.1637271382
 10
443.7365365922
 20
-68.9727155896
 10
444.7969038855
 20
-72.9702551955
 10
445.6486495471
 20
-77.1455729707
 10
446.289481842
 20
-81.4874077656
 10
446.7176569444
 20
-85.9840650183
 10
446.9320368893
 20
-90.6234133377
 10
446.9320368893
 20
-95.3929491381
 10
446.7176569444
 20
-100.2798152734
 10
446.289481842
 20
-105.2708329765
 10
445.6486495471
 20
-110.3525569901
 10
444.7969038855
 20
-115.5112793738
 10
443.7365365922
 20
-120.7330929972
 10
442.4704031161
 20
-126.0039280438
 10
441.0019173519
 20
-131.3095672198
 10
439.3350358351
 20
-136.6357172359
 10
437.4742577417
 20
-141.9680088076
 10
435.4245985467
 20
-147.2920726985
 10
433.1915847556
 20
-152.593551888
 10
430.7812275627
 20
-157.858162405
 10
428.2000333877
 20
-163.0717054971
 10
425.4549564606
 20
-168.2201284625
 10
422.5534040901
 20
-173.2895489858
 10
419.5031892482
 20
-178.2663068446
 10
416.312541107
 20
-183.1369821621
 10
412.9900523553
 20
-187.8884501549
 10
409.5446923693
 20
-192.5078856978
 10
405.9857413583
 20
-196.9828500093
 10
402.3227956327
 20
-201.3012754439
 10
398.5657280918
 20
-205.451524804
 10
394.7246671503
 20
-209.4224035052
 10
390.809970396
 20
-213.2032052019
 10
386.8321916633
 20
-216.7837368793
 10
382.8020494226
 20
-220.1543614365
 10
378.7304122924
 20
-223.3059695479
 10
374.6282562341
 20
-226.2300834624
 10
370.50663821
 20
-228.9188113732
 10
366.3766709116
 20
-231.3649045926
 10
362.2494874456
 20
-233.5617718551
 10
358.1362135096
 20
-235.5034892956
 10
354.047938911
 20
-237.1848290594
 10
349.9956840628
 20
-238.6012482248
 10
345.9903729013
 20
-239.748928772
 10
342.0428029223
 20
-240.6247887977
 10
338.1636201562
 20
-241.2264482916
 10
334.3632757045
 20
-241.5523028971
 10
330.6520165196
 20
-241.601468397
 10
327.039849844
 20
-241.3738073259
 10
323.5365142337
 20
-240.8699396145
 10
320.1514505829
 20
-240.0912228145
 10
316.8937836842
 20
-239.0397505759
 10
313.7722985214
 20
-237.7183663334
 10
310.7954139275
 20
-236.1306176758
 10
307.9711430721
 20
-234.2808034913
 10
305.3071145347
 20
-232.1739009649
 10
302.810498548
 20
-229.8155899062
 10
300.4880280709
 20
-227.2122284168
 10
298.3459671789
 20
-224.3708346361
 10
296.3900899902
 20
-221.299068488
 10
294.6256648609
 20
-218.0052134288
 10
293.0574543848
 20
-214.4981460282
 10
291.6896837835
 20
-210.7873207573
 10
290.5260409062
 20
-206.8827395701
 10
289.5696604249
 20
-202.7949336508
 10
288.8231238339
 20
-198.5349193072
 10
288.288438377
 20
-194.11418428
 10
287.9670475837
 20
-189.5446447779
 10
287.8598260011
 20
-184.838613918
  0
LWPOLYLINE
  5
E1
330
1F
100
AcDbEntity
  8
0
  6
Continuous
 62
     7
370
    25
100
AcDbPolyline
 90
      111
 70
   128
 43
0.0
 10
302.3555127816
 20
-176.4704320613
 10
302.461606936
 20
-172.1205737463
 10
302.7795522245
 20
-167.6624043292
 10
303.3083002441
 20
-163.1104736482
 10
304.0461387792
 20
-158.4796204549
 10
304.9906496543
 20
-153.7849564412
 10
306.1387614179
 20
-149.0417894367
 10
307.4867230004
 20
-144.2655929885
 10
309.0301353245
 20
-139.4719500892
 10
310.7639723786
 20
-134.6764908216
 10
312.6825759481
 20
-129.8948588972
 10
314.7796872262
 20
-125.142649302
 10
317.0484626182
 20
-120.4353657109
 10
319.4815106207
 20
-115.7883596555
 10
322.0708812843
 20
-111.2167909778
 10
324.8081426052
 20
-106.7355715641
 10
327.6843568172
 20
-102.3593181932
 10
330.6901462466
 20
-98.1022962692
 10
333.8157064828
 20
-93.9784091755
 10
337.0508432568
 20
-90.001091814
 10
340.3850014171
 20
-86.1833242958
 10
343.807307077
 20
-82.5375589408
 10
347.306599224
 20
-79.0756898623
 10
350.8714626476
 20
-75.80900354
 10
354.4902674519
 20
-72.7481560094
 10
358.1512125193
 20
-69.9031356039
 10
361.8423551451
 20
-67.2832215115
 10
365.5516564772
 20
-64.8969575441
 10
369.2670170772
 20
-62.7521255237
 10
372.9763184093
 20
-60.8557213323
 10
376.6674610351
 20
-59.2139328618
 10
380.3284061024
 20
-57.8321160633
 10
383.9472109067
 20
-56.714780502
 10
387.5120743304
 20
-55.8655631248
 10
391.0113664774
 20
-55.2872354884
 10
394.4336721372
 20
-54.9816908345
 10
397.7678302976
 20
-54.9499212805
 10
401.0029670716
 20
-55.192029229
 10
404.1285273077
 20
-55.7072212872
 10
407.1343167372
 20
-56.4938326057
 10
410.0105309492
 20
-57.5492797327
 10
412.7477922701
 20
-58.8701244959
 10
415.3371629337
 20
-60.4520694413
 10
417.7702109362
 20
-62.2899380672
 10
420.0389863282
 20
-64.3777493476
 10
422.1360976063
 20
-66.7086857995
 10
424.0547011758
 20
-69.2751451937
 10
425.7885382299
 20
-72.0687588092
 10
427.331950554
 20
-75.0804157697
 10
428.6799121365
 20
-78.3002889021
 10
429.8280239001
 20
-81.7178742801
 10
430.7725347752
 20
-85.3220292496
 10
431.5103733103
 20
-89.1009922032
 10
432.0391213299
 20
-93.0424434151
 10
432.3570666184
 20
-97.1335210159
 10
432.4631607728
 20
-101.3608856276
 10
432.3570666184
 20
-105.7107439427
 10
432.0391213299
 20
-110.1689133598
 10
431.5103733103
 20
-114.7208440408
 10
430.7725347752
 20
-119.351697234
 10
429.8280239001
 20
-124.0463612478
 10
428.6799121365
 20
-128.7895282522
 10
427.331950554
 20
-133.5657247005
 10
425.7885382299
 20
-138.3593675998
 10
424.0547011758
 20
-143.1548268674
 10
422.1360976063
 20
-147.9364587917
 10
420.0389863282
 20
-152.688668387
 10
417.7702109362
 20
-157.395951978
 10
415.3371629337
 20
-162.0429580335
 10
412.7477922701
 20
-166.6145267111
 10
410.0105309492
 20
-171.0957461249
 10
407.1343167372
 20
-175.4719994957
 10
404.1285273077
 20
-179.7290214198
 10
401.0029670716
 20
-183.8529085134
 10
397.7678302976
 20
-187.8302258749
 10
394.4336721372
 20
-191.6479933932
 10
391.0113664774
 20
-195.2937587482
 10
387.5120743304
 20
-198.7556278266
 10
383.9472109067
 20
-202.022314149
 10
380.3284061024
 20
-205.0831616795
 10
376.6674610351
 20
-207.9281820851
 10
372.9763184093
 20
-210.5480961774
 10
369.2670170772
 20
-212.9343601448
 10
365.5516564772
 20
-215.0791921652
 10
361.8423551451
 20
-216.9755963566
 10
358.1512125193
 20
-218.6173848272
 10
354.4902674519
 20
-219.9992016256
 10
350.8714626476
 20
-221.116537187
 10
347.306599224
 20
-221.9657545641
 10
343.807307077
 20
-222.5440822006
 10
340.3850014171
 20
-222.8496268545
 10
337.0508432568
 20
-222.8813964085
 10
333.8157064828
 20
-222.63928846
 10
330.6901462466
 20
-222.1240964018
 10
327.6843568172
 20
-221.3374850832
 10
324.8081426052
 20
-220.2820379562
 10
322.0708812843
 20
-218.9611931931
 10
319.4815106207
 20
-217.3792482477
 10
317.0484626182
 20
-215.5413796217
 10
314.7796872262
 20
-213.4535683413
 10
312.6825759481
 20
-211.1226318895
 10
310.7639723786
 20
-208.5561724953
 10
309.0301353245
 20
-205.7625588798
 10
307.4867230004
 20
-202.7509019193
 10
306.1387614179
 20
-199.5310287869
 10
304.9906496543
 20
-196.1134434088
 10
304.0461387792
 20
-192.5092884394
 10
303.3083002441
 20
-188.7303254858
 10
302.7795522245
 20
-184.7888742738
 10
302.461606936
 20
-180.697796673
 10
302.3555127816
 20
-176.4704320613
  0
ARC
  5
E2
330
1F
100
AcDbEntity
  8
0
  6
Continuous
 62
     7
370
    25
100
AcDbCircle
 10
489.4079592415
 20
-123.2209218863
 30
0.0
 40
37.91324284011102
100
AcDbArc
 50
49.421917462
 51
59.9754012431
  0
ARC
  5
E3
330
1F
100
AcDbEntity
  8
0
  6
Continuous
 62
     7
370
    25
100
AcDbCircle
 10
414.8386289538
 20
-252.3859281946
 30
0.0
 40
37.94192886970694
100
AcDbArc
 50
240.0351390831
 51
250.0836837356
  0
ARC
  5
E4
330
1F
100
AcDbEntity
  8
0
  6
Continuous
 62
     7
370
    25
100
AcDbCircle
 10
487.8728217077
 20
-125.4838706229
 30
0.0
 40
40.64536601302649
100
AcDbArc
 50
35.9138989935
 51
53.5743739838
  0
ARC
  5
E5
330
1F
100
AcDbEntity
  8
0
  6
Continuous
 62
     7
370
    25
100
AcDbCircle
 10
415.9072030578
 20
-250.3434534556
 30
0.0
 40
40.24128478652911
100
AcDbArc
 50
246.3537162007
 51
263.4084964335
  0
ARC
  5
E6
330
1F
100
AcDbEntity
  8
0
  6
Continuous
 62
     7
370
    25
100
AcDbCircle
 10
531.3336649867
 20
-160.3440541366
 30
0.0
 40
36.70946621600982
100
AcDbArc
 50
37.8698224553
 51
47.128835731
  0
ARC
  5
E7
330
1F
100
AcDbEntity
  8
0
  6
Continuous
 62
     7
370
    25
100
AcDbCircle
 10
467.9446395563
 20
-270.1730726214
 30
0.0
 40
36.69283753794041
100
AcDbArc
 50
252.8631678346
 51
263.2354076725
  0
LWPOLYLINE
  5
E8
330
1F
100
AcDbEntity
  8
0
  6
Continuous
 62
     7
370
    25
100
AcDbPolyline
 90
       59
 70
   128
 43
0.0
 10
629.5373041602
 20
-174.7719876768
 10
630.2255463914
 20
-175.1803934527
 10
632.8647609717
 20
-176.9674551261
 10
635.342031555
 20
-179.0108627699
 10
637.6498349287
 20
-181.3044163849
 10
639.7811694478
 20
-183.841146432
 10
641.7295550342
 20
-186.613350335
 10
643.489075324
 20
-189.6126107354
 10
645.0543934727
 20
-192.8298137454
 10
646.4207468862
 20
-196.2551945743
 10
647.5839893684
 20
-199.878346659
 10
648.5405911207
 20
-203.6882672912
 10
649.2876440105
 20
-207.6733865155
 10
649.8228826448
 20
-211.8215998315
 10
650.1446738332
 20
-216.1203138205
 10
650.2520481981
 20
-220.5564682019
 10
650.1446738332
 20
-225.1165943863
 10
649.8228826448
 20
-229.7868405731
 10
649.2876440105
 20
-234.5530272624
 10
648.5405911207
 20
-239.4006753939
 10
647.5839893684
 20
-244.3150649
 10
646.4207468862
 20
-249.281268167
 10
645.0543934727
 20
-254.2842070679
 10
643.489075324
 20
-259.3086879432
 10
641.7295550342
 20
-264.3394472287
 10
639.7811694478
 20
-269.3612092465
 10
637.6498349287
 20
-274.35872575
 10
635.342031555
 20
-279.3168124241
 10
632.8647609717
 20
-284.2204158025
 10
630.2255463914
 20
-289.0546497695
 10
627.4324062519
 20
-293.8048259762
 10
624.493827875
 20
-298.4565177172
 10
621.418725319
 20
-302.9955994702
 10
618.2164446476
 20
-307.4082864409
 10
614.896708612
 20
-311.6811786644
 10
611.4695982114
 20
-315.801302069
 10
607.9455237175
 20
-319.7561373703
 10
604.3351877956
 20
-323.53367178
 10
600.6495538946
 20
-327.1224415881
 10
596.899814637
 20
-330.511544328
 10
593.0973575745
 20
-333.6906889634
 10
589.2537322606
 20
-336.6502148971
 10
585.3806107382
 20
-339.3811451993
 10
581.4897552707
 20
-341.8751748179
 10
577.5929827809
 20
-344.1247336931
 10
573.7021273134
 20
-346.1229901762
 10
569.829005791
 20
-347.8638707986
 10
565.9853804771
 20
-349.342100192
 10
562.1829234146
 20
-350.5531790325
 10
558.4331841571
 20
-351.4934330864
 10
554.7475502561
 20
-352.1600056028
 10
551.1372143341
 20
-352.5508763217
 10
547.6131398402
 20
-352.664850824
 10
544.1860294397
 20
-352.5015848638
 10
540.866293404
 20
-352.0615782817
 10
537.6640127327
 20
-351.3461658755
 10
534.5889101767
 20
-350.3575219605
 10
531.6503317997
 20
-349.0986405955
 10
529.5454338914
 20
-347.9817611259
  0
LWPOLYLINE
  5
E9
330
1F
100
AcDbEntity
  8
0
  6
Continuous
 62
     1
370
    25
100
AcDbPolyline
 90
       58
 70
   128
 43
0.0
 10
514.06990664
 20
-94.4250483422
 10
515.5051385407
 20
-95.7156003271
 10
517.9154957336
 20
-98.1972716658
 10
520.1485095247
 20
-100.9205680102
 10
522.1981687197
 20
-103.8781457667
 10
524.0589468131
 20
-107.0620286818
 10
525.7258283299
 20
-110.4636382636
 10
527.1943140941
 20
-114.0737998656
 10
528.4604475702
 20
-117.882788317
 10
529.5208148635
 20
-121.8803279229
 10
530.3725605251
 20
-126.0556456981
 10
531.01339282
 20
-130.397480493
 10
531.4415679223
 20
-134.8941377457
 10
531.6559478673
 20
-139.5334860651
 10
531.6559478673
 20
-144.3030218655
 10
531.4415679223
 20
-149.1898880008
 10
531.01339282
 20
-154.1809057039
 10
530.3725605251
 20
-159.2626297175
 10
529.5208148635
 20
-164.4213521012
 10
528.4604475702
 20
-169.6431657246
 10
527.1943140941
 20
-174.9140007712
 10
525.7258283299
 20
-180.2196399472
 10
524.0589468131
 20
-185.5457899633
 10
522.1981687197
 20
-190.878081535
 10
520.1485095247
 20
-196.2021454259
 10
517.9154957336
 20
-201.5036246154
 10
515.5051385407
 20
-206.7682351324
 10
512.9239443657
 20
-211.9817782245
 10
510.1788674386
 20
-217.1302011899
 10
507.2773150681
 20
-222.1996217132
 10
504.2271002261
 20
-227.176379572
 10
501.0364520849
 20
-232.0470548895
 10
497.7139633333
 20
-236.7985228824
 10
494.2686033473
 20
-241.4179584252
 10
490.7096523362
 20
-245.8929227367
 10
487.0467066106
 20
-250.2113481713
 10
483.2896390698
 20
-254.3615975314
 10
479.4485781282
 20
-258.3324762326
 10
475.5338813739
 20
-262.1132779293
 10
471.5561026412
 20
-265.6938096067
 10
467.5259604005
 20
-269.0644341639
 10
463.4543232704
 20
-272.2160422753
 10
459.3521672121
 20
-275.1401561898
 10
455.230549188
 20
-277.8288841006
 10
451.1005818896
 20
-280.27497732
 10
446.9733984235
 20
-282.4718445825
 10
442.8601244876
 20
-284.413562023
 10
438.771849889
 20
-286.0949017868
 10
434.7195950408
 20
-287.5113209522
 10
430.7142838793
 20
-288.6590014994
 10
426.7667139003
 20
-289.5348615251
 10
422.8875311342
 20
-290.136521019
 10
419.0871866825
 20
-290.4623756245
 10
415.3759274976
 20
-290.5115411244
 10
411.7637608219
 20
-290.2838800533
 10
408.2604252116
 20
-289.7800123419
 10
404.8753615608
 20
-289.0012955419
 10
401.9138131514
 20
-288.0585942406
  0
ARC
  5
EA
330
1F
100
AcDbEntity
  8
0
  6
Continuous
 62
     1
370
    25
100
AcDbCircle
 10
539.3930027767
 20
-238.1997204304
 30
0.0
 40
154.1244476287253
100
AcDbArc
 50
136.3693476732
 51
163.6360277855
  0
LWPOLYLINE
  5
EB
330
1F
100
AcDbEntity
  8
0
  6
Continuous
 62
     1
370
    25
100
AcDbPolyline
 90
       53
 70
   128
 43
0.0
 10
520.7914781379
 20
-101.6425653491
 10
522.4333244268
 20
-104.0503418803
 10
524.2935598795
 20
-107.2332908961
 10
525.9599461708
 20
-110.633905746
 10
527.4280051982
 20
-114.2430087435
 10
528.693764621
 20
-118.0508808003
 10
529.7538263497
 20
-122.0472477438
 10
530.6053243985
 20
-126.2213411505
 10
531.2459617642
 20
-130.5619082355
 10
531.6740156944
 20
-135.0572460737
 10
531.8883324191
 20
-139.6952352498
 10
531.8883324191
 20
-144.4633736997
 10
531.6740156944
 20
-149.3488076992
 10
531.2459617642
 20
-154.3383660854
 10
530.6053243985
 20
-159.4185973286
 10
529.7538263497
 20
-164.5758094562
 10
528.693764621
 20
-169.7960976197
 10
527.4280051982
 20
-175.065384399
 10
525.9599461708
 20
-180.3694722708
 10
524.2935598795
 20
-185.6940557798
 10
522.4333244268
 20
-191.0247869325
 10
520.3842658243
 20
-196.3472904099
 10
518.1519053094
 20
-201.6472213582
 10
515.7422540762
 20
-206.9102866809
 10
513.1618185445
 20
-212.1223028347
 10
510.4175476759
 20
-217.2692201593
 10
507.5168382423
 20
-222.337156338
 10
504.4675190209
 20
-227.3124541922
 10
501.2778033788
 20
-232.1817029687
 10
497.9562945413
 20
-236.9317718018
 10
494.5119408114
 20
-241.5498598988
 10
490.9540329348
 20
-246.0235163121
 10
487.2921593197
 20
-250.340677958
 10
483.5361928652
 20
-254.4897076389
 10
479.6962593519
 20
-258.4594183749
 10
475.782708465
 20
-262.239114466
 10
471.8060927219
 20
-265.818603658
 10
467.7771332271
 20
-269.1882351616
 10
463.7066880626
 20
-272.3389239852
 10
459.6057331894
 20
-275.2621802103
 10
455.4853232652
 20
-277.9501194444
 10
451.3565656308
 20
-280.3954960885
 10
447.2305910055
 20
-282.5917202554
 10
443.1185228645
 20
-284.532869363
 10
439.0314454998
 20
-286.2137126569
 10
434.9803773488
 20
-287.6297144395
 10
430.9762397137
 20
-288.7770642955
 10
427.029828773
 20
-289.6526628307
 10
423.1517787035
 20
-290.2541551291
 10
419.352548509
 20
-290.5799079371
 10
415.6423772397
 20
-290.6290598507
 10
412.0312695036
 20
-290.4014688416
 10
411.2879123655
 20
-290.3187352529
  0
LWPOLYLINE
  5
EC
330
1F
100
AcDbEntity
  8
0
  6
Continuous
 62
     1
370
    25
100
AcDbPolyline
 90
       51
 70
   128
 43
0.0
 10
560.3123935941
 20
-137.8092322345
 10
561.6364473768
 20
-139.6110816587
 10
563.4609159602
 20
-142.4913478784
 10
565.0966404193
 20
-145.5897579819
 10
566.5387422563
 20
-148.8970642827
 10
567.7829224927
 20
-152.4033879644
 10
568.8254616691
 20
-156.0982723132
 10
569.6632567238
 20
-159.9706842424
 10
570.293794651
 20
-164.0090758871
 10
570.7152051842
 20
-168.2013861304
 10
570.9262239179
 20
-172.5351092316
 10
570.9262239179
 20
-176.9973088975
 10
570.7152051842
 20
-181.5746690428
 10
570.293794651
 20
-186.2535295312
 10
569.6632567238
 20
-191.0199247706
 10
568.8254616691
 20
-195.8596342805
 10
567.7829224927
 20
-200.7582087411
 10
566.5387422563
 20
-205.701032347
 10
565.0966404193
 20
-210.6733539879
 10
563.4609159602
 20
-215.6603313526
 10
561.6364473768
 20
-220.6470841609
 10
559.6286874176
 20
-225.6187321866
 10
557.4436262034
 20
-230.5604287143
 10
555.0877806907
 20
-235.4574396267
 10
552.5681841348
 20
-240.2951373193
 10
549.8923597482
 20
-245.0590919543
 10
547.0682838219
 20
-249.7350805824
 10
544.1043909941
 20
-254.3091571053
 10
541.0095268345
 20
-258.7676613979
 10
537.7929294055
 20
-263.0972907891
 10
534.4641923836
 20
-267.2851274356
 10
531.0332518881
 20
-271.3186702597
 10
527.5103522376
 20
-275.1858790532
 10
523.9060011682
 20
-278.8752124965
 10
520.23095798
 20
-282.3756654195
 10
516.4961900733
 20
-285.67678781
 10
512.7128426553
 20
-288.7687327193
 10
508.8922091058
 20
-291.6422612027
 10
505.0456898181
 20
-294.2888086661
 10
501.1847643753
 20
-296.7004705094
 10
497.3209558247
 20
-298.8700531695
 10
493.4657947867
 20
-300.7910765885
 10
489.6307871862
 20
-302.4578110925
 10
485.8273772098
 20
-303.8652866095
 10
482.0669181647
 20
-305.0092973242
 10
478.3606296738
 20
-305.8864324725
 10
474.7195726506
 20
-306.4940664535
 10
471.1546183478
 20
-306.8303949484
 10
467.676399625
 20
-306.8944082997
 10
464.2953004121
 20
-306.6859219288
 10
463.622578758
 20
-306.6104725979
  0
ARC
  5
ED
330
1F
100
AcDbEntity
  8
0
  6
Continuous
 62
     1
370
    25
100
AcDbCircle
 10
540.2890279319
 20
-238.7169830055
 30
0.0
 40
154.3710083005736
100
AcDbArc
 50
137.014637688
 51
162.9907372249
  0
LWPOLYLINE
  5
EE
330
1F
100
AcDbEntity
  8
0
  6
Continuous
 62
     1
370
    25
100
AcDbPolyline
 90
       55
 70
   128
 43
0.0
 10
555.4122482039
 20
-132.6100662897
 10
556.2749783879
 20
-133.3664245458
 10
558.5827817617
 20
-135.6599781607
 10
560.7141162807
 20
-138.1967082078
 10
562.6625018671
 20
-140.9689121108
 10
564.422022157
 20
-143.9681725113
 10
565.9873403056
 20
-147.1853755212
 10
567.3536937191
 20
-150.6107563502
 10
568.5169362013
 20
-154.2339084349
 10
569.4735379536
 20
-158.043829067
 10
570.2205908435
 20
-162.0289482913
 10
570.7558294778
 20
-166.1771616074
 10
571.0776206661
 20
-170.4758755964
 10
571.1849950311
 20
-174.9120299778
 10
571.0776206661
 20
-179.4721561621
 10
570.7558294778
 20
-184.142402349
 10
570.2205908435
 20
-188.9085890382
 10
569.4735379536
 20
-193.7562371697
 10
568.5169362013
 20
-198.6706266758
 10
567.3536937191
 20
-203.6368299428
 10
565.9873403056
 20
-208.6397688437
 10
564.422022157
 20
-213.6642497191
 10
562.6625018671
 20
-218.6950090045
 10
560.7141162807
 20
-223.7167710224
 10
558.5827817617
 20
-228.7142875258
 10
556.2749783879
 20
-233.6723742
 10
553.7977078046
 20
-238.5759775783
 10
551.1584932243
 20
-243.4102115453
 10
548.3653530848
 20
-248.1603877521
 10
545.4267747079
 20
-252.8120794931
 10
542.3516721519
 20
-257.351161246
 10
539.1493914805
 20
-261.7638482167
 10
535.8296554449
 20
-266.0367404403
 10
532.4025450443
 20
-270.1568638448
 10
528.8784705504
 20
-274.1116991462
 10
525.2681346285
 20
-277.8892335558
 10
521.5825007275
 20
-281.4780033639
 10
517.8327614699
 20
-284.8671061038
 10
514.0303044074
 20
-288.0462507392
 10
510.1866790935
 20
-291.0057766729
 10
506.3135575711
 20
-293.7367069752
 10
502.4227021037
 20
-296.2307365938
 10
498.5259296138
 20
-298.4802954689
 10
494.6350741464
 20
-300.4785519521
 10
490.761952624
 20
-302.2194325744
 10
486.9183273101
 20
-303.6976619679
 10
483.1158702476
 20
-304.9087408083
 10
479.36613099
 20
-305.8489948622
 10
475.680497089
 20
-306.5155673787
 10
472.0701611671
 20
-306.9064380975
 10
468.5460866732
 20
-307.0204125998
 10
465.1189762726
 20
-306.8571466397
 10
461.799240237
 20
-306.4171400576
 10
458.5969595656
 20
-305.7017276514
 10
455.9655632257
 20
-304.875441612
  0
ENDSEC
  0
SECTION
  2
OBJECTS
  0
DICTIONARY
  5
C
330
0
100
AcDbDictionary
281
     1
  3
ACAD_GROUP
350
D
  3
ACAD_LAYOUT
350
1A
  3
ACAD_MLINESTYLE
350
17
  3
ACAD_PLOTSETTINGS
350
19
  3
ACAD_PLOTSTYLENAME
350
E
  3
ACAD_SCALELIST
350
47
  0
DICTIONARY
  5
D
102
{ACAD_REACTORS
330
C
102
}
330
C
100
AcDbDictionary
281
     1
  0
DICTIONARY
  5
1A
102
{ACAD_REACTORS
330
C
102
}
330
C
100
AcDbDictionary
281
     1
  3
Layout1
350
1E
  3
Layout2
350
26
  3
Model
350
22
  0
DICTIONARY
  5
17
102
{ACAD_REACTORS
330
C
102
}
330
C
100
AcDbDictionary
281
     1
  3
Standard
350
18
  0
DICTIONARY
  5
19
102
{ACAD_REACTORS
330
C
102
}
330
C
100
AcDbDictionary
281
     1
  0
ACDBDICTIONARYWDFLT
  5
E
102
{ACAD_REACTORS
330
C
102
}
330
C
100
AcDbDictionary
281
     1
  3
Normal
350
F
100
AcDbDictionaryWithDefault
340
F
  0
DICTIONARY
  5
47
102
{ACAD_REACTORS
330
C
102
}
330
C
100
AcDbDictionary
281
     1
  3
A0
350
48
  3
A1
350
49
  3
A2
350
4A
  3
A3
350
4B
  3
A4
350
4C
  3
A5
350
4D
  3
A6
350
4E
  3
A7
350
4F
  3
A8
350
50
  3
A9
350
51
  3
B0
350
52
  3
B1
350
53
  3
B2
350
54
  3
B3
350
55
  3
B4
350
56
  3
B5
350
57
  3
B6
350
58
  3
B7
350
59
  3
B8
350
5A
  3
B9
350
5B
  3
C0
350
5C
  3
C1
350
5D
  3
C2
350
5E
  3
C3
350
5F
  3
C4
350
60
  3
C5
350
61
  3
C6
350
62
  3
C7
350
63
  3
C8
350
64
  3
C9
350
65
  3
D0
350
66
  3
D1
350
67
  3
D2
350
68
  0
LAYOUT
  5
1E
102
{ACAD_REACTORS
330
1A
102
}
330
1A
100
AcDbPlotSettings
  1

  2
none_device
  4

  6

 40
0.0
 41
0.0
 42
0.0
 43
0.0
 44
0.0
 45
0.0
 46
0.0
 47
0.0
 48
0.0
 49
0.0
140
0.0
141
0.0
142
1.0
143
1.0
 70
   688
 72
     1
 73
     0
 74
     5
  7

 75
    16
147
1.0
148
0.0
149
0.0
100
AcDbLayout
  1
Layout1
 70
     1
 71
     1
 10
0.0
 20
0.0
 11
420.0
 21
297.0
 12
0.0
 22
0.0
 32
0.0
 14
1.0000000000E+20
 24
1.0000000000E+20
 34
1.0000000000E+20
 15
-1.0000000000E+20
 25
-1.0000000000E+20
 35
-1.0000000000E+20
146
0.0
 13
0.0
 23
0.0
 33
0.0
 16
1.0
 26
0.0
 36
0.0
 17
0.0
 27
1.0
 37
0.0
 76
     0
330
1B
  0
LAYOUT
  5
26
102
{ACAD_REACTORS
330
1A
102
}
330
1A
100
AcDbPlotSettings
  1

  2
none_device
  4

  6

 40
0.0
 41
0.0
 42
0.0
 43
0.0
 44
0.0
 45
0.0
 46
0.0
 47
0.0
 48
0.0
 49
0.0
140
0.0
141
0.0
142
1.0
143
1.0
 70
   688
 72
     1
 73
     0
 74
     5
  7

 75
    16
147
1.0
148
0.0
149
0.0
100
AcDbLayout
  1
Layout2
 70
     1
 71
     2
 10
0.0
 20
0.0
 11
0.0
 21
0.0
 12
0.0
 22
0.0
 32
0.0
 14
0.0
 24
0.0
 34
0.0
 15
0.0
 25
0.0
 35
0.0
146
0.0
 13
0.0
 23
0.0
 33
0.0
 16
1.0
 26
0.0
 36
0.0
 17
0.0
 27
1.0
 37
0.0
 76
     0
330
23
  0
LAYOUT
  5
22
102
{ACAD_REACTORS
330
1A
102
}
330
1A
100
AcDbPlotSettings
  1

  2
none_device
  4
Letter_(8.50_x_11.00_Inches)
  6

 40
6.35
 41
6.35
 42
6.35000508
 43
6.35000508
 44
215.9
 45
279.4
 46
0.0
 47
0.0
 48
0.0
 49
0.0
140
0.0
141
0.0
142
1.0
143
1.0
 70
  1712
 72
     1
 73
     0
 74
     0
  7

 75
     0
147
1.0
148
0.0
149
0.0
100
AcDbLayout
  1
Model
 70
     1
 71
     0
 10
0.0
 20
0.0
 11
279.4
 21
215.9
 12
0.0
 22
0.0
 32
0.0
 14
0.0
 24
0.0
 34
0.0
 15
279.4
 25
215.9
 35
0.0
146
0.0
 13
0.0
 23
0.0
 33
0.0
 16
1.0
 26
0.0
 36
0.0
 17
0.0
 27
1.0
 37
0.0
 76
     0
330
1F
331
29
  0
MLINESTYLE
  5
18
102
{ACAD_REACTORS
330
17
102
}
330
17
100
AcDbMlineStyle
  2
Standard
 70
     0
  3

 62
   256
 51
90.0
 52
90.0
 71
     2
 49
0.5
 62
   256
  6
BYLAYER
 49
-0.5
 62
   256
  6
BYLAYER
  0
ACDBPLACEHOLDER
  5
F
102
{ACAD_REACTORS
330
E
102
}
330
E
  0
SCALE
  5
48
102
{ACAD_REACTORS
330
47
102
}
330
47
100
AcDbScale
 70
     0
300
1:1
140
1.0
141
1.0
290
     1
  0
SCALE
  5
49
102
{ACAD_REACTORS
330
47
102
}
330
47
100
AcDbScale
 70
     0
300
1:2
140
1.0
141
2.0
290
     0
  0
SCALE
  5
4A
102
{ACAD_REACTORS
330
47
102
}
330
47
100
AcDbScale
 70
     0
300
1:4
140
1.0
141
4.0
290
     0
  0
SCALE
  5
4B
102
{ACAD_REACTORS
330
47
102
}
330
47
100
AcDbScale
 70
     0
300
1:5
140
1.0
141
5.0
290
     0
  0
SCALE
  5
4C
102
{ACAD_REACTORS
330
47
102
}
330
47
100
AcDbScale
 70
     0
300
1:8
140
1.0
141
8.0
290
     0
  0
SCALE
  5
4D
102
{ACAD_REACTORS
330
47
102
}
330
47
100
AcDbScale
 70
     0
300
1:10
140
1.0
141
10.0
290
     0
  0
SCALE
  5
4E
102
{ACAD_REACTORS
330
47
102
}
330
47
100
AcDbScale
 70
     0
300
1:16
140
1.0
141
16.0
290
     0
  0
SCALE
  5
4F
102
{ACAD_REACTORS
330
47
102
}
330
47
100
AcDbScale
 70
     0
300
1:20
140
1.0
141
20.0
290
     0
  0
SCALE
  5
50
102
{ACAD_REACTORS
330
47
102
}
330
47
100
AcDbScale
 70
     0
300
1:30
140
1.0
141
30.0
290
     0
  0
SCALE
  5
51
102
{ACAD_REACTORS
330
47
102
}
330
47
100
AcDbScale
 70
     0
300
1:40
140
1.0
141
40.0
290
     0
  0
SCALE
  5
52
102
{ACAD_REACTORS
330
47
102
}
330
47
100
AcDbScale
 70
     0
300
1:50
140
1.0
141
50.0
290
     0
  0
SCALE
  5
53
102
{ACAD_REACTORS
330
47
102
}
330
47
100
AcDbScale
 70
     0
300
1:100
140
1.0
141
100.0
290
     0
  0
SCALE
  5
54
102
{ACAD_REACTORS
330
47
102
}
330
47
100
AcDbScale
 70
     0
300
2:1
140
2.0
141
1.0
290
     0
  0
SCALE
  5
55
102
{ACAD_REACTORS
330
47
102
}
330
47
100
AcDbScale
 70
     0
300
4:1
140
4.0
141
1.0
290
     0
  0
SCALE
  5
56
102
{ACAD_REACTORS
330
47
102
}
330
47
100
AcDbScale
 70
     0
300
8:1
140
8.0
141
1.0
290
     0
  0
SCALE
  5
57
102
{ACAD_REACTORS
330
47
102
}
330
47
100
AcDbScale
 70
     0
300
10:1
140
10.0
141
1.0
290
     0
  0
SCALE
  5
58
102
{ACAD_REACTORS
330
47
102
}
330
47
100
AcDbScale
 70
     0
300
100:1
140
100.0
141
1.0
290
     0
  0
SCALE
  5
59
102
{ACAD_REACTORS
330
47
102
}
330
47
100
AcDbScale
 70
     0
300
1/128" = 1'-0"
140
0.0078125
141
12.0
290
     0
  0
SCALE
  5
5A
102
{ACAD_REACTORS
330
47
102
}
330
47
100
AcDbScale
 70
     0
300
1/64" = 1'-0"
140
0.015625
141
12.0
290
     0
  0
SCALE
  5
5B
102
{ACAD_REACTORS
330
47
102
}
330
47
100
AcDbScale
 70
     0
300
1/32" = 1'-0"
140
0.03125
141
12.0
290
     0
  0
SCALE
  5
5C
102
{ACAD_REACTORS
330
47
102
}
330
47
100
AcDbScale
 70
     0
300
1/16" = 1'-0"
140
0.0625
141
12.0
290
     0
  0
SCALE
  5
5D
102
{ACAD_REACTORS
330
47
102
}
330
47
100
AcDbScale
 70
     0
300
3/32" = 1'-0"
140
0.09375
141
12.0
290
     0
  0
SCALE
  5
5E
102
{ACAD_REACTORS
330
47
102
}
330
47
100
AcDbScale
 70
     0
300
1/8" = 1'-0"
140
0.125
141
12.0
290
     0
  0
SCALE
  5
5F
102
{ACAD_REACTORS
330
47
102
}
330
47
100
AcDbScale
 70
     0
300
3/16" = 1'-0"
140
0.1875
141
12.0
290
     0
  0
SCALE
  5
60
102
{ACAD_REACTORS
330
47
102
}
330
47
100
AcDbScale
 70
     0
300
1/4" = 1'-0"
140
0.25
141
12.0
290
     0
  0
SCALE
  5
61
102
{ACAD_REACTORS
330
47
102
}
330
47
100
AcDbScale
 70
     0
300
3/8" = 1'-0"
140
0.375
141
12.0
290
     0
  0
SCALE
  5
62
102
{ACAD_REACTORS
330
47
102
}
330
47
100
AcDbScale
 70
     0
300
1/2" = 1'-0"
140
0.5
141
12.0
290
     0
  0
SCALE
  5
63
102
{ACAD_REACTORS
330
47
102
}
330
47
100
AcDbScale
 70
     0
300
3/4" = 1'-0"
140
0.75
141
12.0
290
     0
  0
SCALE
  5
64
102
{ACAD_REACTORS
330
47
102
}
330
47
100
AcDbScale
 70
     0
300
1" = 1'-0"
140
1.0
141
12.0
290
     0
  0
SCALE
  5
65
102
{ACAD_REACTORS
330
47
102
}
330
47
100
AcDbScale
 70
     0
300
1-1/2" = 1'-0"
140
1.5
141
12.0
290
     0
  0
SCALE
  5
66
102
{ACAD_REACTORS
330
47
102
}
330
47
100
AcDbScale
 70
     0
300
3" = 1'-0"
140
3.0
141
12.0
290
     0
  0
SCALE
  5
67
102
{ACAD_REACTORS
330
47
102
}
330
47
100
AcDbScale
 70
     0
300
6" = 1'-0"
140
6.0
141
12.0
290
     0
  0
SCALE
  5
68
102
{ACAD_REACTORS
330
47
102
}
330
47
100
AcDbScale
 70
     0
300
1'-0" = 1'-0"
140
12.0
141
12.0
290
     0
  0
ENDSEC
  0
EOF
